Cock Rock's Not Dead

1-2-3 Baby Yeah

Home
MP3s
Biography
Discography
Lyrics
Features
Pictures
Related Bands
Contact Me

E|---------------------------------------------------------------------|
B|---------------------------------------------------------------------|
G|-----------------------5-----------------------5---------------------|
D|--5--5--5--5--5--5--3--5--5--5--5--5--5--5--3--5---------------------|
A|--5--5--5--5--5--5--3--3--5--5--5--5--5--5--3--3---------------------|
E|--3--3--3--3--3--3--1-----3--3--3--3--3--3--1------------------------|
Verse (Just play all of these a whole lot)

E|---------------------------------------------------------------------|
B|---------------------------------------------------------------------|
G|--------3-4-5-------3-4-5-------3-4-5--5-6-7-------------------------|
D|--5-5-5-3-4-5-5-5-5-3-4-5-5-5-5-3-4-5--5-6-7-3-4-5-------------------|
A|--5-5-5-1-2-3-5-5-5-1-2-3-5-5-5-1-2-3--3-4-5-3-4-5-------------------|
E|--3-3-3-------3-3-3-------3-3-3--------------1-2-3-------------------|
Chorus

E|---------------------------------------------------------------------|
B|---------------------------------------------------------------------|
G|-----3-4-5--5-6-7-----------3-4-5--5-6-7-----------------------------|
D|--5--3-4-5--5-6-7--3-4-5--5-3-4-5--5-6-7-3-4-5-----------------------|
A|--5--1-2-3--3-4-5--3-4-5--5-1-2-3--3-4-5-3-4-5-----------------------|
E|--3----------------1-2-3--3--------------1-2-3-----------------------|
Solo Fill

 Nearly Everything on site is copyright Andrew McDonald 2004