Cock Rock's Not Dead

When I squeeze My Nose I sound like Axl Rose

Home
MP3s
Biography
Discography
Lyrics
Features
Pictures
Related Bands
Contact Me

E|--------------------------------------------------------------------|
B|--------7------7-----7-7--------------------7------7---7-7----------|
G|---7--7---9--9-----------9-7-----------7--7---9--9---------9--------|
D|-----------------7------------7-7-7-7----------------7--------------|
A|------------------------------7-7-7-7-------------------------------|
E|------------------------------5-5-5-5-------------------------------|
Intro

E|--------------------------------------------------------------------|
B|--------------------------------------------------------------------|
G|--7--------6-7---7--------6-7---7--9----6-7-------------------------|
D|--7-9-7--7-6-7---7-9-7--7-6-7---7--9-7--6-7-------------------------|
A|--5-9-7--7-4-5---5-9-7--7-4-5---5--7-7--4-5-------------------------|
E|----7-5--5---------7-5--5------------5------------------------------|
Chorus

E|--------------------------------------------------------------------|
B|--------------------------------------------------------------------|
G|--7--7--7--------7-7---7--7--7-------7-7----------------------------|
D|--7--7--7--7--7--7-7---7--7--7--7--7-7-7----------------------------|
A|--5--5--5--7--7--5-5---5--5--5--7--7-5-5----------------------------|
E|-----------5--5-----------------5--5--------------------------------|
Solo fill

 Nearly Everything on site is copyright Andrew McDonald 2004