Cock Rock's Not Dead

Rock & Roll Concert

Home
MP3s
Biography
Discography
Lyrics
Features
Pictures
Related Bands
Contact Me

Legend :

x - muted string
b - bend up
r - release bend
/ - slide up
\ - slide down

*intro

e|----------------------------------------------
B|----------------------------------------------
G|--------------------5-7b8r7-7-------8-8-7-5---
D|--5-7-7-5-7-7-5-7-7-----------5-7-7-----------
A|----------------------------------------------
E|----------------------------------------------

e|----------------------------------------------
B|----------------------------------------------
G|--------------------5-7b8r7-7-------8-8-7-5---
D|--5-7-7-5-7-7-5-7-7-----------5-7-7-8-8-7-5---
A|------------------------------------6-6-5-3---
E|----------------------------------------------

*Riff #1

e|----------------------------------------------
B|----------------------------------------------
G|--------------------5/7--------------8-8-7-5--
D|--5/7---5/7---5/7---5/7---5/7-xxxxxx-8-8-7-5-- 2 times
A|--5/7---5/7---5/7---3/5---5/7-xxxxxx-6-6-5-3--
E|--3/5---3/5---3/5---------3/5-xxxxxx----------

*Riff #2

        Friday night. Four top groups.....
e|----------------------------------------------
B|----------------------------------------------
G|-------------------------------------8-8-7-5--
D|--5/7-xxxxxx--5/7-xxxxxx--5/7-xxxxxx-8-8-7-5-- 2 times
A|--5/7-xxxxxx--5/7-xxxxxx--5/7-xxxxxx-6-6-5-3--
E|--3/5-xxxxxx--3/5-xxxxxx--3/5-xxxxxx----------

*Chorus


    Hands up who really wants it
e|----------------------------------------------
B|----------------------------------------------
G|------------------7-7-7-7-7-7-7-7-------------
D|--7-7-7-7-7-7-7-7-7-7-7-7-7-7-7-7-------------
A|--7-7-7-7-7-7-7-7-5-5-5-5-5-5-5-5-------------
E|--5-5-5-5-5-5-5-5-----------------------------


   Ooooh            Party all night at the
e|----------------------------------------------
B|----------------------------------------------
G|--7-7-7-7-7-7-7-7-----------------------------
D|--7-7-7-7-7-7-7-7-7-7-7-7-7-7-7-7-------------
A|--5-5-5-5-5-5-5-5-7-7-7-7-7-7-7-7-------------
E|------------------5-5-5-5-5-5-5-5-------------


    Rock and roll concert
e|----------------------------------------------
B|----------------------------------------------
G|------------------7-7-7-7-7-7-7-7-------------
D|--7-7-7-7-7-7-7-7-7-7-7-7-7-7-7-7-------------
A|--7-7-7-7-7-7-7-7-5-5-5-5-5-5-5-5-------------
E|--5-5-5-5-5-5-5-5-----------------------------


   Yeah It's gonna be out of sight
e|----------------------------------------------
B|----------------------------------------------
G|--7-7-7-7-7-7-7-7-7-7-7-7-7-7-7-7-------------
D|--7-7-7-7-7-7-7-7-7-7-7-7-7-7-7-7-------------
A|--5-5-5-5-5-5-5-5-5-5-5-5-5-5-5-5-------------
E|----------------------------------------------


Repeat Riff #1 2 times

Repeat Riff #2 2 times (no muted strings first time)

Repeat Chorus

*Interlude

e|----------------------------------------------
B|----------------------------------------------
G|----------------------------------------------
D|----------------------------------------------
A|--------------------------3-5-5-5-------------
E|--3-5-5-5-3-5-5-5-3-5-5-5---------------------

e|----------------------------------------------
B|----------------------------------------------
G|----------------------------------------------
D|----------------------------------------------
A|--------------------6-6-6-5-5-3-3-------------
E|--3-5-5-5-5-5-5-5-5---------------------------

e|----------------------------------------------
B|----------------------------------------------
G|----------------------------------------------
D|----------------------------------------------
A|--------------------------3-5-5-5-------------
E|--3-5-5-5-3-5-5-5-3-5-5-5---------------------


e|----------------------------------------------
B|----------------------------------------------
G|--------------------------8-8-7-5-------------
D|--------------------------8-8-7-5-------------
A|--------------------------6-6-5-3-------------
E|--3-5-----------------------------------------

Repeat Riff #1 2 times

Repeat Chorus 2 times.


End on

e|------
B|------
G|------
D|--7---
A|--7---
E|--5---
 
Lyrics are there as a guide, not timing.

 Nearly Everything on site is copyright Andrew McDonald 2004