Cock Rock's Not Dead

Satan is Tops

Home
MP3s
Biography
Discography
Lyrics
Features
Pictures
Related Bands
Contact Me

Note: Drop D tuning.

*Riff #1

e|-----------------------------------------------------
B|-----------------------------------------------------
G|---------------------------------0-0-----------------
D|-0-0-----0-0-----0-0-----0-0-2-4-----4-4-----4-2----- 2 Times
A|-----2-0-----2-------2-0-----------------0-0---------
D|-----------------------------------------------------

*Riff #2

  Death metal song. This is a death metal song
e|-----------------------------------------------------
B|-----------------------------------------------------
G|-----------------------------------------------------
D|-0-0-0-0-0-0-0-0-0-0-0-0-0-0-0-0---------------------
A|---------------------------------0-0-0-0-2-2-2-2-----
D|-----------------------------------------------------

*Riff #2

  Death metal song. Oh baby this is a death metal song
e|-----------------------------------------------------
B|-----------------------------------------------------
G|-----------------------------------------------------
D|-0-0-0-0-0-0-0-0-0-0-0-0-0-0-0-0-----------------0---
A|---------------------------------0-0-0-0-2-2-2-2-----
D|-----------------------------------------------------

*Riff #3

   Satan   is tops          Satan   is tops
e|-----------------4---5--------------------4---5------
B|-----------------------------------------------------
G|-----------------------------------------------------
D|-----------------------------------------------------
A|-----------------------------------------------------
D|-0---0---1---0------------0---0---1---0--------------


Repeat Riff #1 2 times

Repeat Riff #2

*outro :

   Satan   is tops.  I'm very angry about something or other.
e|-----------------------------------------------------
B|-----------------------------------------------------
G|-----------------------------------------------------
D|-----------------------------------------------------
A|-----------------------------------------------------
D|-0---0---1---0---------------------------------------

 

 Nearly Everything on site is copyright Andrew McDonald 2004