Cock Rock's Not Dead

You're So Tough for hating Silverchair

Home
MP3s
Biography
Discography
Lyrics
Features
Pictures
Related Bands
Contact Me

Dropped D tuning DADGBE
LEGEND
*=10th fret

Intro
E------------------------------------------------
B------------------------------------------------
G------------------------------------------------
D-5/8-5/8-5/8-5----5/8-5/8-5/8-5-----------------
A-5/8-5/8-5/8-5----5/8-5/8-5/8-5-----------------
D-5/8-5/8-5/8-5----5/8-5/8-5/8-5-----------------

Riff 1
e------------------------------------------------
B-----------------------------------------------
G------------------------------------------------
D-5/8-5/8-5/8-555-5/8-5/8-5/8-555----------------
A-5/8-5/8-5/8-555-5/8-5/8-5/8-555----------------
D-5/8-5/8-5/8-555-5/8-5/8-5/8-555----------------

Horns come in…

Riff 2
e------------------------------------------------
B------------------------------------------------
G------------------------------------------------
D-5-5---10----7 hold-----------------------------
A-5-5---10----7 hold-----------------------------
D-5-5---10----7 hold-----------------------------

Chorus
e------------------------------------------------
B------------------------------------------------
G------------------------------------------------
D-5555-****-7-8-7-6------------------------------
A-5555-****-7-8-7-6------------------------------
D-5555-****-7-8-7-6------------------------------

Break
e------------------------------------------------
B------------------------------------------------
G------------------------------------------------
D-55555555--5/8-------********-------------------
A-55555555--5/8—x3----********--8-78787-8-78787-8
D-55555555--5/8-------********-------------------
PM- - - - -

End
e------------------------------------------------
B------------------------------------------------
G------------------------------------------------
D-8-7-6-8-7-6-8-7-6-5----------------------------
A-8-7-6-8-7-6-8-7-6-5----------------------------
D-8-7-6-8-7-6-8-7-6-5----------------------------

Format

Intro

Riff 1

Riff 2 x3 (Played between sentences)

Chorus x4

Riff 2

Break

Chorus x3 (Faster)

End

 Nearly Everything on site is copyright Andrew McDonald 2004