Cock Rock's Not Dead

What Eggs Architect?

Home
MP3s
Biography
Discography
Lyrics
Features
Pictures
Related Bands
Contact Me

*intro

e|-----------------------------------------------------
B|-----------------------------------------------------
G|-----------------------------------------------------
D|-----------------------------------------------------
A|-----------------------------------------------------
E|-12-12-11-11-10-10-9-9-8-8-7-7-6-6-5-5---------------


e|----------------------------------------------------------
B|----------------------------------------------------------
G|------------------------------------------------------4-4-
D|--------------------------------------------------4-4-4-4- 2 times
A|--------------------------------------------------4-4-2-2-
E|--0-0-3-3-5-5-3-3-0-0-5-5-7-7-9-9-0-0-3-3-5-5-3-3-2-2-----

*Riff #1

e|------------------------------
B|------------------------------
G|------------------------------
D|--2-6-2-6-7-9-2-6-2-6-7-9-----
A|--2-6-2-6-7-9-2-6-2-6-7-9-----
E|--0-4-0-4-5-7-0-4-0-4-5-7-----

*Riff #2

    Hello there I am...

e|------------------------------
B|------------------------------
G|------------------------------
D|--2----6------2-6-2-6-7-9-----
A|--2----6------2-6-2-6-7-9-----
E|--0----4------0-4-0-4-5-7-----

*Riff #3

    Hot enough for ya? Must be fourty

e|-------------------------------------
B|-------------------------------------
G|-------------------------------------
D|--9-9-9-9-9-9-9-9-9-9-9-9-9-9-9-9----
A|--9-9-9-9-9-9-9-9-9-9-9-9-9-9-9-9----
E|--7-7-7-7-7-7-7-7-7-7-7-7-7-7-7-7----

    two. 

e|-------------------------------------
B|-------------------------------------
G|-------------------------------------
D|--6-6-6-6-6-6-6-6-6-6-6-6-6-6-6-6----
A|--6-6-6-6-6-6-6-6-6-6-6-6-6-6-6-6----
E|--4-4-4-4-4-4-4-4-4-4-4-4-4-4-4-4----

    Nothing like it was on stage...

e|-------------------------------------
B|-------------------------------------
G|-------------------------------------
D|--7-7-7-7-7-7-7-7-7-7-7-7-7-7-7-7----
A|--7-7-7-7-7-7-7-7-7-7-7-7-7-7-7-7----
E|--5-5-5-5-5-5-5-5-5-5-5-5-5-5-5-5----


    Let me tell you. I'm the guy...

e|-----------------------------
B|-----------------------------
G|--------------------4--------
D|--9-9-9-7-6-----4---4--------
A|--9-9-9-7-6-----4---2--------
E|--7-7-7-5-4-----2------------

*Riff #4

   What the fuck has that to do...

e|------------------------------------
B|------------------------------------
G|------------------------------------
D|--2-2-2-2-6-6-6-6-7-7-7-7-9-9-9-9--- 3 times
A|--2-2-2-2-6-6-6-6-7-7-7-7-9-9-9-9---
E|--0-0-0-0-4-4-4-4-5-5-5-5-7-7-7-7---

e|------------------------------------
B|------------------------------------
G|------------------4-4-4-7-9-9-9-9---
D|--2-2-2-6-7-7-7-7-4-4-4-7-9-9-9-9--- 3 times
A|--2-2-2-6-7-7-7-7-2-2-2-5-7-7-7-7---
E|--0-0-0-4-5-5-5-5-------------------


e|-----------------------------
B|-----------------------------
G|-----------------------------
D|--9-------7---6---4---2------
A|--9-------7---6---4---2------
E|--7-------5---4---2---0------


*Interlude

e|-------------------------------------
B|----------5--------------------------
G|------4-4-4-----------4-4------------
D|--4-4-4-4---------4-4-4-4------------
A|--4-4-2-2---------4-4-2-2------------
E|--2-2-------------2-2----------------


Repeat Riff #1

Repeat Riff #2

Repeat Riff #3

Repeat Riff #4


*Riff #5 (slower bit)

   Hello there....

e|-----------------------------
B|-----------------------------
G|-------------------------4---
D|--9----6--7---9-7-6---4--4---
A|--9----6--7---9-7-6---4--2---
E|--7----4--5---7-5-4---2------

Repeat Riff #4

*outro


e|--------------------
B|--------------------
G|--------------------
D|--------------------
A|--------------------
E|--0-0-3-3-5-5-3-3-0-

The lyrics here are for a guide, not timing. Sorry

 Nearly Everything on site is copyright Andrew McDonald 2004